ISO-10303-21;
HEADER;
/* Generated by software containing ST-Developer
 * from STEP Tools, Inc. (www.steptools.com) 
 */

FILE_DESCRIPTION(
/* description */ (''),
/* implementation_level */ '2;1');

FILE_NAME(
/* name */ 
'C:\\Users\\user\\Desktop\\FA\X2\C2DCC2A4D15C\X0\\\3D \X2\B3C4BA74\X0\\\
GPF-T050\\GPF-T050.stp',
/* time_stamp */ '2018-12-17T13:04:17+09:00',
/* author */ ('user'),
/* organization */ (''),
/* preprocessor_version */ 'ST-DEVELOPER v17',
/* originating_system */ 'Autodesk Inventor 2018',
/* authorisation */ '');

FILE_SCHEMA (('AUTOMOTIVE_DESIGN { 1 0 10303 214 3 1 1 }'));
ENDSEC;

DATA;
#10=MECHANICAL_DESIGN_GEOMETRIC_PRESENTATION_REPRESENTATION('',(#120,#121),
#253);
#11=SHAPE_REPRESENTATION_RELATIONSHIP('SRR','None',#260,#12);
#12=ADVANCED_BREP_SHAPE_REPRESENTATION('',(#13),#252);
#13=MANIFOLD_SOLID_BREP('\X2\C194B9ACB4DC\X0\5',#131);
#14=FACE_BOUND('',#50,.T.);
#15=FACE_BOUND('',#53,.T.);
#16=CONICAL_SURFACE('',#161,1.35,0.785398163397448);
#17=CONICAL_SURFACE('',#167,1.35,0.785398163397448);
#18=PLANE('',#158);
#19=PLANE('',#166);
#20=PLANE('',#169);
#21=LINE('',#227,#26);
#22=LINE('',#233,#27);
#23=LINE('',#238,#28);
#24=LINE('',#242,#29);
#25=LINE('',#247,#30);
#26=VECTOR('',#184,1.1);
#27=VECTOR('',#193,0.25);
#28=VECTOR('',#198,1.35);
#29=VECTOR('',#203,1.5);
#30=VECTOR('',#210,1.35);
#31=CYLINDRICAL_SURFACE('',#155,1.1);
#32=CYLINDRICAL_SURFACE('',#159,0.25);
#33=CYLINDRICAL_SURFACE('',#164,1.5);
#34=FACE_OUTER_BOUND('',#43,.T.);
#35=FACE_OUTER_BOUND('',#44,.T.);
#36=FACE_OUTER_BOUND('',#45,.T.);
#37=FACE_OUTER_BOUND('',#46,.T.);
#38=FACE_OUTER_BOUND('',#47,.T.);
#39=FACE_OUTER_BOUND('',#48,.T.);
#40=FACE_OUTER_BOUND('',#49,.T.);
#41=FACE_OUTER_BOUND('',#51,.T.);
#42=FACE_OUTER_BOUND('',#52,.T.);
#43=EDGE_LOOP('',(#89,#90,#91,#92));
#44=EDGE_LOOP('',(#93,#94,#95,#96));
#45=EDGE_LOOP('',(#97));
#46=EDGE_LOOP('',(#98,#99,#100,#101,#102));
#47=EDGE_LOOP('',(#103,#104,#105,#106));
#48=EDGE_LOOP('',(#107,#108,#109,#110));
#49=EDGE_LOOP('',(#111));
#50=EDGE_LOOP('',(#112));
#51=EDGE_LOOP('',(#113,#114,#115,#116));
#52=EDGE_LOOP('',(#117));
#53=EDGE_LOOP('',(#118));
#54=CIRCLE('',#152,0.25);
#55=CIRCLE('',#153,0.25);
#56=CIRCLE('',#154,0.25625);
#57=CIRCLE('',#156,1.1);
#58=CIRCLE('',#157,1.1);
#59=CIRCLE('',#160,0.25);
#60=CIRCLE('',#162,1.2);
#61=CIRCLE('',#163,1.5);
#62=CIRCLE('',#165,1.5);
#63=CIRCLE('',#168,1.2);
#64=VERTEX_POINT('',#217);
#65=VERTEX_POINT('',#218);
#66=VERTEX_POINT('',#221);
#67=VERTEX_POINT('',#224);
#68=VERTEX_POINT('',#226);
#69=VERTEX_POINT('',#231);
#70=VERTEX_POINT('',#235);
#71=VERTEX_POINT('',#237);
#72=VERTEX_POINT('',#241);
#73=VERTEX_POINT('',#246);
#74=EDGE_CURVE('',#64,#65,#54,.T.);
#75=EDGE_CURVE('',#65,#64,#55,.T.);
#76=EDGE_CURVE('',#66,#65,#56,.T.);
#77=EDGE_CURVE('',#67,#67,#57,.T.);
#78=EDGE_CURVE('',#67,#68,#21,.T.);
#79=EDGE_CURVE('',#68,#68,#58,.T.);
#80=EDGE_CURVE('',#69,#69,#59,.T.);
#81=EDGE_CURVE('',#69,#64,#22,.T.);
#82=EDGE_CURVE('',#70,#70,#60,.T.);
#83=EDGE_CURVE('',#70,#71,#23,.T.);
#84=EDGE_CURVE('',#71,#71,#61,.T.);
#85=EDGE_CURVE('',#71,#72,#24,.T.);
#86=EDGE_CURVE('',#72,#72,#62,.T.);
#87=EDGE_CURVE('',#72,#73,#25,.T.);
#88=EDGE_CURVE('',#73,#73,#63,.T.);
#89=ORIENTED_EDGE('',*,*,#74,.F.);
#90=ORIENTED_EDGE('',*,*,#75,.F.);
#91=ORIENTED_EDGE('',*,*,#76,.F.);
#92=ORIENTED_EDGE('',*,*,#76,.T.);
#93=ORIENTED_EDGE('',*,*,#77,.F.);
#94=ORIENTED_EDGE('',*,*,#78,.T.);
#95=ORIENTED_EDGE('',*,*,#79,.F.);
#96=ORIENTED_EDGE('',*,*,#78,.F.);
#97=ORIENTED_EDGE('',*,*,#77,.T.);
#98=ORIENTED_EDGE('',*,*,#80,.F.);
#99=ORIENTED_EDGE('',*,*,#81,.T.);
#100=ORIENTED_EDGE('',*,*,#74,.T.);
#101=ORIENTED_EDGE('',*,*,#75,.T.);
#102=ORIENTED_EDGE('',*,*,#81,.F.);
#103=ORIENTED_EDGE('',*,*,#82,.T.);
#104=ORIENTED_EDGE('',*,*,#83,.T.);
#105=ORIENTED_EDGE('',*,*,#84,.T.);
#106=ORIENTED_EDGE('',*,*,#83,.F.);
#107=ORIENTED_EDGE('',*,*,#84,.F.);
#108=ORIENTED_EDGE('',*,*,#85,.T.);
#109=ORIENTED_EDGE('',*,*,#86,.F.);
#110=ORIENTED_EDGE('',*,*,#85,.F.);
#111=ORIENTED_EDGE('',*,*,#82,.F.);
#112=ORIENTED_EDGE('',*,*,#79,.T.);
#113=ORIENTED_EDGE('',*,*,#86,.T.);
#114=ORIENTED_EDGE('',*,*,#87,.T.);
#115=ORIENTED_EDGE('',*,*,#88,.T.);
#116=ORIENTED_EDGE('',*,*,#87,.F.);
#117=ORIENTED_EDGE('',*,*,#88,.F.);
#118=ORIENTED_EDGE('',*,*,#80,.T.);
#119=SPHERICAL_SURFACE('',#151,0.25625);
#120=STYLED_ITEM('',(#270),#122);
#121=STYLED_ITEM('',(#269),#13);
#122=ADVANCED_FACE('',(#34),#119,.T.);
#123=ADVANCED_FACE('',(#35),#31,.T.);
#124=ADVANCED_FACE('',(#36),#18,.F.);
#125=ADVANCED_FACE('',(#37),#32,.F.);
#126=ADVANCED_FACE('',(#38),#16,.T.);
#127=ADVANCED_FACE('',(#39),#33,.T.);
#128=ADVANCED_FACE('',(#40,#14),#19,.F.);
#129=ADVANCED_FACE('',(#41),#17,.T.);
#130=ADVANCED_FACE('',(#42,#15),#20,.T.);
#131=CLOSED_SHELL('',(#122,#123,#124,#125,#126,#127,#128,#129,#130));
#132=DERIVED_UNIT_ELEMENT(#134,1.);
#133=DERIVED_UNIT_ELEMENT(#255,3.);
#134=(
MASS_UNIT()
NAMED_UNIT(*)
SI_UNIT($,.GRAM.)
);
#135=DERIVED_UNIT((#132,#133));
#136=MEASURE_REPRESENTATION_ITEM('density measure',
POSITIVE_RATIO_MEASURE(1.),#135);
#137=PROPERTY_DEFINITION_REPRESENTATION(#142,#139);
#138=PROPERTY_DEFINITION_REPRESENTATION(#143,#140);
#139=REPRESENTATION('material name',(#141),#252);
#140=REPRESENTATION('density',(#136),#252);
#141=DESCRIPTIVE_REPRESENTATION_ITEM('\X2\C77CBC18\X0\','\X2\C77CBC18\X0\');
#142=PROPERTY_DEFINITION('material property','material name',#262);
#143=PROPERTY_DEFINITION('material property','density of part',#262);
#144=DATE_TIME_ROLE('creation_date');
#145=APPLIED_DATE_AND_TIME_ASSIGNMENT(#146,#144,(#262));
#146=DATE_AND_TIME(#147,#148);
#147=CALENDAR_DATE(2018,13,12);
#148=LOCAL_TIME(4,51,14.,#149);
#149=COORDINATED_UNIVERSAL_TIME_OFFSET(0,0,.BEHIND.);
#150=AXIS2_PLACEMENT_3D('placement',#215,#170,#171);
#151=AXIS2_PLACEMENT_3D('',#216,#172,#173);
#152=AXIS2_PLACEMENT_3D('',#219,#174,#175);
#153=AXIS2_PLACEMENT_3D('',#220,#176,#177);
#154=AXIS2_PLACEMENT_3D('',#222,#178,#179);
#155=AXIS2_PLACEMENT_3D('',#223,#180,#181);
#156=AXIS2_PLACEMENT_3D('',#225,#182,#183);
#157=AXIS2_PLACEMENT_3D('',#228,#185,#186);
#158=AXIS2_PLACEMENT_3D('',#229,#187,#188);
#159=AXIS2_PLACEMENT_3D('',#230,#189,#190);
#160=AXIS2_PLACEMENT_3D('',#232,#191,#192);
#161=AXIS2_PLACEMENT_3D('',#234,#194,#195);
#162=AXIS2_PLACEMENT_3D('',#236,#196,#197);
#163=AXIS2_PLACEMENT_3D('',#239,#199,#200);
#164=AXIS2_PLACEMENT_3D('',#240,#201,#202);
#165=AXIS2_PLACEMENT_3D('',#243,#204,#205);
#166=AXIS2_PLACEMENT_3D('',#244,#206,#207);
#167=AXIS2_PLACEMENT_3D('',#245,#208,#209);
#168=AXIS2_PLACEMENT_3D('',#248,#211,#212);
#169=AXIS2_PLACEMENT_3D('',#249,#213,#214);
#170=DIRECTION('axis',(0.,0.,1.));
#171=DIRECTION('refdir',(1.,0.,0.));
#172=DIRECTION('center_axis',(6.12323399573677E-17,0.,1.));
#173=DIRECTION('ref_axis',(1.,0.,0.));
#174=DIRECTION('center_axis',(0.,0.,-1.));
#175=DIRECTION('ref_axis',(-1.,0.,0.));
#176=DIRECTION('center_axis',(0.,0.,-1.));
#177=DIRECTION('ref_axis',(-1.,0.,0.));
#178=DIRECTION('center_axis',(1.22464679914735E-16,-1.,0.));
#179=DIRECTION('ref_axis',(-1.,-1.22464679914735E-16,0.));
#180=DIRECTION('center_axis',(0.,0.,-1.));
#181=DIRECTION('ref_axis',(1.,0.,0.));
#182=DIRECTION('center_axis',(0.,0.,-1.));
#183=DIRECTION('ref_axis',(1.,0.,0.));
#184=DIRECTION('',(0.,0.,1.));
#185=DIRECTION('center_axis',(0.,0.,1.));
#186=DIRECTION('ref_axis',(1.,0.,0.));
#187=DIRECTION('center_axis',(0.,0.,1.));
#188=DIRECTION('ref_axis',(1.,0.,0.));
#189=DIRECTION('center_axis',(0.,0.,-1.));
#190=DIRECTION('ref_axis',(-1.,0.,0.));
#191=DIRECTION('center_axis',(0.,0.,-1.));
#192=DIRECTION('ref_axis',(-1.,0.,0.));
#193=DIRECTION('',(0.,0.,-1.));
#194=DIRECTION('center_axis',(0.,0.,1.));
#195=DIRECTION('ref_axis',(-1.,0.,0.));
#196=DIRECTION('center_axis',(0.,0.,1.));
#197=DIRECTION('ref_axis',(-1.,0.,0.));
#198=DIRECTION('',(0.707106781186547,-8.65956056235493E-17,0.707106781186548));
#199=DIRECTION('center_axis',(0.,0.,-1.));
#200=DIRECTION('ref_axis',(-1.,0.,0.));
#201=DIRECTION('center_axis',(0.,0.,-1.));
#202=DIRECTION('ref_axis',(-1.,0.,0.));
#203=DIRECTION('',(0.,0.,1.));
#204=DIRECTION('center_axis',(0.,0.,1.));
#205=DIRECTION('ref_axis',(-1.,0.,0.));
#206=DIRECTION('center_axis',(0.,0.,1.));
#207=DIRECTION('ref_axis',(1.,0.,0.));
#208=DIRECTION('center_axis',(0.,0.,-1.));
#209=DIRECTION('ref_axis',(-1.,0.,0.));
#210=DIRECTION('',(-0.707106781186548,8.65956056235494E-17,0.707106781186548));
#211=DIRECTION('center_axis',(0.,0.,-1.));
#212=DIRECTION('ref_axis',(-1.,0.,0.));
#213=DIRECTION('center_axis',(0.,0.,1.));
#214=DIRECTION('ref_axis',(1.,0.,0.));
#215=CARTESIAN_POINT('',(0.,0.,0.));
#216=CARTESIAN_POINT('Origin',(0.,-1.73472347597681E-17,-0.25625));
#217=CARTESIAN_POINT('',(0.25,3.06161699786838E-17,-0.2));
#218=CARTESIAN_POINT('',(-0.25,-4.79634047384519E-17,-0.2));
#219=CARTESIAN_POINT('Origin',(0.,0.,-0.2));
#220=CARTESIAN_POINT('Origin',(0.,0.,-0.2));
#221=CARTESIAN_POINT('',(-1.56907871140755E-17,-1.73472347597681E-17,0.));
#222=CARTESIAN_POINT('Origin',(0.,-1.73472347597681E-17,-0.25625));
#223=CARTESIAN_POINT('Origin',(0.,0.,-15.));
#224=CARTESIAN_POINT('',(-1.1,1.34711147906209E-16,-85.));
#225=CARTESIAN_POINT('Origin',(0.,0.,-85.));
#226=CARTESIAN_POINT('',(-1.1,1.34711147906209E-16,-15.));
#227=CARTESIAN_POINT('',(-1.1,1.34711147906209E-16,-15.));
#228=CARTESIAN_POINT('Origin',(0.,0.,-15.));
#229=CARTESIAN_POINT('Origin',(1.16360685111991E-16,2.62836890299516E-17,
-85.));
#230=CARTESIAN_POINT('Origin',(0.,0.,0.));
#231=CARTESIAN_POINT('',(0.25,3.06161699786838E-17,0.));
#232=CARTESIAN_POINT('Origin',(0.,0.,0.));
#233=CARTESIAN_POINT('',(0.25,-3.06161699786838E-17,0.));
#234=CARTESIAN_POINT('Origin',(0.,0.,-14.85));
#235=CARTESIAN_POINT('',(1.2,1.46957615897682E-16,-15.));
#236=CARTESIAN_POINT('Origin',(0.,0.,-15.));
#237=CARTESIAN_POINT('',(1.5,-1.83697019872103E-16,-14.7));
#238=CARTESIAN_POINT('',(1.35,-1.65327317884893E-16,-14.85));
#239=CARTESIAN_POINT('Origin',(0.,0.,-14.7));
#240=CARTESIAN_POINT('Origin',(0.,0.,0.));
#241=CARTESIAN_POINT('',(1.5,1.83697019872103E-16,-0.3));
#242=CARTESIAN_POINT('',(1.5,-1.83697019872103E-16,0.));
#243=CARTESIAN_POINT('Origin',(0.,0.,-0.3));
#244=CARTESIAN_POINT('Origin',(-1.69505727298391E-16,3.85494105772624E-17,
-15.));
#245=CARTESIAN_POINT('Origin',(0.,0.,-0.15));
#246=CARTESIAN_POINT('',(1.2,-1.46957615897682E-16,0.));
#247=CARTESIAN_POINT('',(1.35,-1.65327317884893E-16,-0.15));
#248=CARTESIAN_POINT('Origin',(0.,0.,0.));
#249=CARTESIAN_POINT('Origin',(-1.69505727298391E-16,3.85494105772624E-17,
0.));
#250=UNCERTAINTY_MEASURE_WITH_UNIT(LENGTH_MEASURE(0.01),#254,
'DISTANCE_ACCURACY_VALUE',
'Maximum model space distance between geometric entities at asserted c
onnectivities');
#251=UNCERTAINTY_MEASURE_WITH_UNIT(LENGTH_MEASURE(0.01),#254,
'DISTANCE_ACCURACY_VALUE',
'Maximum model space distance between geometric entities at asserted c
onnectivities');
#252=(
GEOMETRIC_REPRESENTATION_CONTEXT(3)
GLOBAL_UNCERTAINTY_ASSIGNED_CONTEXT((#250))
GLOBAL_UNIT_ASSIGNED_CONTEXT((#254,#257,#256))
REPRESENTATION_CONTEXT('','3D')
);
#253=(
GEOMETRIC_REPRESENTATION_CONTEXT(3)
GLOBAL_UNCERTAINTY_ASSIGNED_CONTEXT((#251))
GLOBAL_UNIT_ASSIGNED_CONTEXT((#254,#257,#256))
REPRESENTATION_CONTEXT('','3D')
);
#254=(
LENGTH_UNIT()
NAMED_UNIT(*)
SI_UNIT(.MILLI.,.METRE.)
);
#255=(
LENGTH_UNIT()
NAMED_UNIT(*)
SI_UNIT(.CENTI.,.METRE.)
);
#256=(
NAMED_UNIT(*)
SI_UNIT($,.STERADIAN.)
SOLID_ANGLE_UNIT()
);
#257=(
NAMED_UNIT(*)
PLANE_ANGLE_UNIT()
SI_UNIT($,.RADIAN.)
);
#258=SHAPE_DEFINITION_REPRESENTATION(#259,#260);
#259=PRODUCT_DEFINITION_SHAPE('',$,#262);
#260=SHAPE_REPRESENTATION('',(#150),#252);
#261=PRODUCT_DEFINITION_CONTEXT('part definition',#266,'design');
#262=PRODUCT_DEFINITION('GPF-D011','GPF-T050',#263,#261);
#263=PRODUCT_DEFINITION_FORMATION('',$,#268);
#264=PRODUCT_RELATED_PRODUCT_CATEGORY('GPF-T050','GPF-T050',(#268));
#265=APPLICATION_PROTOCOL_DEFINITION('international standard',
'automotive_design',2009,#266);
#266=APPLICATION_CONTEXT(
'Core Data for Automotive Mechanical Design Process');
#267=PRODUCT_CONTEXT('part definition',#266,'mechanical');
#268=PRODUCT('GPF-D011','GPF-T050',$,(#267));
#269=PRESENTATION_STYLE_ASSIGNMENT((#271));
#270=PRESENTATION_STYLE_ASSIGNMENT((#272));
#271=SURFACE_STYLE_USAGE(.BOTH.,#273);
#272=SURFACE_STYLE_USAGE(.BOTH.,#274);
#273=SURFACE_SIDE_STYLE('',(#275));
#274=SURFACE_SIDE_STYLE('',(#276));
#275=SURFACE_STYLE_FILL_AREA(#277);
#276=SURFACE_STYLE_FILL_AREA(#278);
#277=FILL_AREA_STYLE('',(#279));
#278=FILL_AREA_STYLE('',(#280));
#279=FILL_AREA_STYLE_COLOUR('',#281);
#280=FILL_AREA_STYLE_COLOUR('',#282);
#281=COLOUR_RGB('',0.749019607843137,0.749019607843137,0.749019607843137);
#282=COLOUR_RGB('',0.8,0.,0.);
ENDSEC;
END-ISO-10303-21;
