ISO-10303-21;
HEADER;
/* Generated by software containing ST-Developer
 * from STEP Tools, Inc. (www.steptools.com) 
 */

FILE_DESCRIPTION(
/* description */ (''),
/* implementation_level */ '2;1');

FILE_NAME(
/* name */ 
'C:\\Users\\user\\Desktop\\FA\X2\C2DCC2A4D15C\X0\\\3D \X2\B3C4BA74\X0\\\
GPF-T007-2\\GPF-T007-2.stp',
/* time_stamp */ '2018-12-17T11:06:17+09:00',
/* author */ ('user'),
/* organization */ (''),
/* preprocessor_version */ 'ST-DEVELOPER v17',
/* originating_system */ 'Autodesk Inventor 2018',
/* authorisation */ '');

FILE_SCHEMA (('AUTOMOTIVE_DESIGN { 1 0 10303 214 3 1 1 }'));
ENDSEC;

DATA;
#10=MECHANICAL_DESIGN_GEOMETRIC_PRESENTATION_REPRESENTATION('',(#15,#16),
#474);
#11=SHAPE_REPRESENTATION_RELATIONSHIP('SRR','None',#481,#12);
#12=ADVANCED_BREP_SHAPE_REPRESENTATION('',(#13),#473);
#13=MANIFOLD_SOLID_BREP('\X2\C194B9ACB4DC\X0\5',#258);
#14=SPHERICAL_SURFACE('',#293,0.5);
#15=STYLED_ITEM('',(#491),#248);
#16=STYLED_ITEM('',(#490),#13);
#17=FACE_BOUND('',#51,.T.);
#18=FACE_BOUND('',#54,.T.);
#19=PLANE('',#283);
#20=PLANE('',#287);
#21=PLANE('',#296);
#22=PLANE('',#301);
#23=PLANE('',#302);
#24=PLANE('',#305);
#25=PLANE('',#308);
#26=PLANE('',#311);
#27=CYLINDRICAL_SURFACE('',#281,1.5);
#28=CYLINDRICAL_SURFACE('',#289,0.5);
#29=CYLINDRICAL_SURFACE('',#299,0.5);
#30=CYLINDRICAL_SURFACE('',#306,0.75);
#31=CYLINDRICAL_SURFACE('',#309,0.65);
#32=FACE_OUTER_BOUND('',#48,.T.);
#33=FACE_OUTER_BOUND('',#49,.T.);
#34=FACE_OUTER_BOUND('',#50,.T.);
#35=FACE_OUTER_BOUND('',#52,.T.);
#36=FACE_OUTER_BOUND('',#53,.T.);
#37=FACE_OUTER_BOUND('',#55,.T.);
#38=FACE_OUTER_BOUND('',#56,.T.);
#39=FACE_OUTER_BOUND('',#57,.T.);
#40=FACE_OUTER_BOUND('',#58,.T.);
#41=FACE_OUTER_BOUND('',#59,.T.);
#42=FACE_OUTER_BOUND('',#60,.T.);
#43=FACE_OUTER_BOUND('',#61,.T.);
#44=FACE_OUTER_BOUND('',#62,.T.);
#45=FACE_OUTER_BOUND('',#63,.T.);
#46=FACE_OUTER_BOUND('',#64,.T.);
#47=FACE_OUTER_BOUND('',#65,.T.);
#48=EDGE_LOOP('',(#172,#173,#174,#175));
#49=EDGE_LOOP('',(#176,#177,#178,#179));
#50=EDGE_LOOP('',(#180));
#51=EDGE_LOOP('',(#181));
#52=EDGE_LOOP('',(#182,#183,#184,#185));
#53=EDGE_LOOP('',(#186));
#54=EDGE_LOOP('',(#187));
#55=EDGE_LOOP('',(#188,#189,#190,#191,#192));
#56=EDGE_LOOP('',(#193,#194,#195,#196,#197));
#57=EDGE_LOOP('',(#198,#199,#200,#201,#202));
#58=EDGE_LOOP('',(#203,#204,#205,#206));
#59=EDGE_LOOP('',(#207,#208,#209,#210,#211));
#60=EDGE_LOOP('',(#212,#213,#214,#215,#216));
#61=EDGE_LOOP('',(#217,#218,#219,#220,#221));
#62=EDGE_LOOP('',(#222,#223,#224,#225,#226,#227,#228,#229,#230,#231,#232,
#233));
#63=EDGE_LOOP('',(#234));
#64=EDGE_LOOP('',(#235,#236,#237,#238));
#65=EDGE_LOOP('',(#239));
#66=LINE('',#403,#82);
#67=LINE('',#407,#83);
#68=LINE('',#414,#84);
#69=LINE('',#422,#85);
#70=LINE('',#428,#86);
#71=LINE('',#436,#87);
#72=LINE('',#441,#88);
#73=LINE('',#444,#89);
#74=LINE('',#447,#90);
#75=LINE('',#450,#91);
#76=LINE('',#451,#92);
#77=LINE('',#454,#93);
#78=LINE('',#459,#94);
#79=LINE('',#463,#95);
#80=LINE('',#464,#96);
#81=LINE('',#469,#97);
#82=VECTOR('',#318,1.425);
#83=VECTOR('',#323,1.5);
#84=VECTOR('',#332,1.425);
#85=VECTOR('',#341,10.);
#86=VECTOR('',#346,10.);
#87=VECTOR('',#357,10.);
#88=VECTOR('',#362,10.);
#89=VECTOR('',#365,10.);
#90=VECTOR('',#368,10.);
#91=VECTOR('',#371,10.);
#92=VECTOR('',#372,10.);
#93=VECTOR('',#375,10.);
#94=VECTOR('',#382,10.);
#95=VECTOR('',#387,0.75);
#96=VECTOR('',#388,0.75);
#97=VECTOR('',#395,0.65);
#98=CIRCLE('',#279,1.35);
#99=CIRCLE('',#280,1.5);
#100=CIRCLE('',#282,1.5);
#101=CIRCLE('',#284,0.65);
#102=CIRCLE('',#286,1.35);
#103=CIRCLE('',#288,0.75);
#104=CIRCLE('',#290,0.5);
#105=CIRCLE('',#291,0.5);
#106=CIRCLE('',#292,0.5);
#107=CIRCLE('',#294,0.5);
#108=CIRCLE('',#295,0.5);
#109=CIRCLE('',#297,0.75);
#110=CIRCLE('',#298,0.75);
#111=CIRCLE('',#300,0.5);
#112=CIRCLE('',#303,0.75);
#113=CIRCLE('',#304,0.75);
#114=CIRCLE('',#307,0.75);
#115=CIRCLE('',#310,0.65);
#116=VERTEX_POINT('',#400);
#117=VERTEX_POINT('',#402);
#118=VERTEX_POINT('',#406);
#119=VERTEX_POINT('',#410);
#120=VERTEX_POINT('',#413);
#121=VERTEX_POINT('',#417);
#122=VERTEX_POINT('',#420);
#123=VERTEX_POINT('',#421);
#124=VERTEX_POINT('',#423);
#125=VERTEX_POINT('',#425);
#126=VERTEX_POINT('',#427);
#127=VERTEX_POINT('',#432);
#128=VERTEX_POINT('',#435);
#129=VERTEX_POINT('',#437);
#130=VERTEX_POINT('',#439);
#131=VERTEX_POINT('',#443);
#132=VERTEX_POINT('',#445);
#133=VERTEX_POINT('',#449);
#134=VERTEX_POINT('',#453);
#135=VERTEX_POINT('',#455);
#136=VERTEX_POINT('',#461);
#137=VERTEX_POINT('',#467);
#138=EDGE_CURVE('',#116,#116,#98,.T.);
#139=EDGE_CURVE('',#116,#117,#66,.T.);
#140=EDGE_CURVE('',#117,#117,#99,.T.);
#141=EDGE_CURVE('',#117,#118,#67,.T.);
#142=EDGE_CURVE('',#118,#118,#100,.T.);
#143=EDGE_CURVE('',#119,#119,#101,.T.);
#144=EDGE_CURVE('',#118,#120,#68,.T.);
#145=EDGE_CURVE('',#120,#120,#102,.T.);
#146=EDGE_CURVE('',#121,#121,#103,.T.);
#147=EDGE_CURVE('',#122,#123,#69,.T.);
#148=EDGE_CURVE('',#122,#124,#104,.T.);
#149=EDGE_CURVE('',#124,#125,#105,.T.);
#150=EDGE_CURVE('',#126,#125,#70,.T.);
#151=EDGE_CURVE('',#123,#126,#106,.T.);
#152=EDGE_CURVE('',#125,#122,#107,.T.);
#153=EDGE_CURVE('',#127,#124,#108,.T.);
#154=EDGE_CURVE('',#126,#128,#71,.T.);
#155=EDGE_CURVE('',#129,#128,#109,.T.);
#156=EDGE_CURVE('',#130,#129,#110,.T.);
#157=EDGE_CURVE('',#130,#123,#72,.T.);
#158=EDGE_CURVE('',#131,#122,#73,.T.);
#159=EDGE_CURVE('',#131,#132,#111,.T.);
#160=EDGE_CURVE('',#125,#132,#74,.T.);
#161=EDGE_CURVE('',#133,#132,#75,.T.);
#162=EDGE_CURVE('',#128,#133,#76,.T.);
#163=EDGE_CURVE('',#131,#134,#77,.T.);
#164=EDGE_CURVE('',#135,#134,#112,.T.);
#165=EDGE_CURVE('',#133,#135,#113,.T.);
#166=EDGE_CURVE('',#134,#130,#78,.T.);
#167=EDGE_CURVE('',#136,#136,#114,.T.);
#168=EDGE_CURVE('',#136,#135,#79,.T.);
#169=EDGE_CURVE('',#129,#121,#80,.T.);
#170=EDGE_CURVE('',#137,#137,#115,.T.);
#171=EDGE_CURVE('',#137,#119,#81,.T.);
#172=ORIENTED_EDGE('',*,*,#138,.T.);
#173=ORIENTED_EDGE('',*,*,#139,.T.);
#174=ORIENTED_EDGE('',*,*,#140,.T.);
#175=ORIENTED_EDGE('',*,*,#139,.F.);
#176=ORIENTED_EDGE('',*,*,#140,.F.);
#177=ORIENTED_EDGE('',*,*,#141,.T.);
#178=ORIENTED_EDGE('',*,*,#142,.F.);
#179=ORIENTED_EDGE('',*,*,#141,.F.);
#180=ORIENTED_EDGE('',*,*,#138,.F.);
#181=ORIENTED_EDGE('',*,*,#143,.T.);
#182=ORIENTED_EDGE('',*,*,#142,.T.);
#183=ORIENTED_EDGE('',*,*,#144,.T.);
#184=ORIENTED_EDGE('',*,*,#145,.T.);
#185=ORIENTED_EDGE('',*,*,#144,.F.);
#186=ORIENTED_EDGE('',*,*,#145,.F.);
#187=ORIENTED_EDGE('',*,*,#146,.T.);
#188=ORIENTED_EDGE('',*,*,#147,.F.);
#189=ORIENTED_EDGE('',*,*,#148,.T.);
#190=ORIENTED_EDGE('',*,*,#149,.T.);
#191=ORIENTED_EDGE('',*,*,#150,.F.);
#192=ORIENTED_EDGE('',*,*,#151,.F.);
#193=ORIENTED_EDGE('',*,*,#148,.F.);
#194=ORIENTED_EDGE('',*,*,#152,.F.);
#195=ORIENTED_EDGE('',*,*,#149,.F.);
#196=ORIENTED_EDGE('',*,*,#153,.F.);
#197=ORIENTED_EDGE('',*,*,#153,.T.);
#198=ORIENTED_EDGE('',*,*,#151,.T.);
#199=ORIENTED_EDGE('',*,*,#154,.T.);
#200=ORIENTED_EDGE('',*,*,#155,.F.);
#201=ORIENTED_EDGE('',*,*,#156,.F.);
#202=ORIENTED_EDGE('',*,*,#157,.T.);
#203=ORIENTED_EDGE('',*,*,#152,.T.);
#204=ORIENTED_EDGE('',*,*,#158,.F.);
#205=ORIENTED_EDGE('',*,*,#159,.T.);
#206=ORIENTED_EDGE('',*,*,#160,.F.);
#207=ORIENTED_EDGE('',*,*,#150,.T.);
#208=ORIENTED_EDGE('',*,*,#160,.T.);
#209=ORIENTED_EDGE('',*,*,#161,.F.);
#210=ORIENTED_EDGE('',*,*,#162,.F.);
#211=ORIENTED_EDGE('',*,*,#154,.F.);
#212=ORIENTED_EDGE('',*,*,#163,.T.);
#213=ORIENTED_EDGE('',*,*,#164,.F.);
#214=ORIENTED_EDGE('',*,*,#165,.F.);
#215=ORIENTED_EDGE('',*,*,#161,.T.);
#216=ORIENTED_EDGE('',*,*,#159,.F.);
#217=ORIENTED_EDGE('',*,*,#158,.T.);
#218=ORIENTED_EDGE('',*,*,#147,.T.);
#219=ORIENTED_EDGE('',*,*,#157,.F.);
#220=ORIENTED_EDGE('',*,*,#166,.F.);
#221=ORIENTED_EDGE('',*,*,#163,.F.);
#222=ORIENTED_EDGE('',*,*,#167,.F.);
#223=ORIENTED_EDGE('',*,*,#168,.T.);
#224=ORIENTED_EDGE('',*,*,#164,.T.);
#225=ORIENTED_EDGE('',*,*,#166,.T.);
#226=ORIENTED_EDGE('',*,*,#156,.T.);
#227=ORIENTED_EDGE('',*,*,#169,.T.);
#228=ORIENTED_EDGE('',*,*,#146,.F.);
#229=ORIENTED_EDGE('',*,*,#169,.F.);
#230=ORIENTED_EDGE('',*,*,#155,.T.);
#231=ORIENTED_EDGE('',*,*,#162,.T.);
#232=ORIENTED_EDGE('',*,*,#165,.T.);
#233=ORIENTED_EDGE('',*,*,#168,.F.);
#234=ORIENTED_EDGE('',*,*,#167,.T.);
#235=ORIENTED_EDGE('',*,*,#170,.F.);
#236=ORIENTED_EDGE('',*,*,#171,.T.);
#237=ORIENTED_EDGE('',*,*,#143,.F.);
#238=ORIENTED_EDGE('',*,*,#171,.F.);
#239=ORIENTED_EDGE('',*,*,#170,.T.);
#240=CONICAL_SURFACE('',#278,1.425,0.785398163397452);
#241=CONICAL_SURFACE('',#285,1.425,0.785398163397449);
#242=ADVANCED_FACE('',(#32),#240,.T.);
#243=ADVANCED_FACE('',(#33),#27,.T.);
#244=ADVANCED_FACE('',(#34,#17),#19,.F.);
#245=ADVANCED_FACE('',(#35),#241,.T.);
#246=ADVANCED_FACE('',(#36,#18),#20,.T.);
#247=ADVANCED_FACE('',(#37),#28,.T.);
#248=ADVANCED_FACE('',(#38),#14,.T.);
#249=ADVANCED_FACE('',(#39),#21,.F.);
#250=ADVANCED_FACE('',(#40),#29,.F.);
#251=ADVANCED_FACE('',(#41),#22,.F.);
#252=ADVANCED_FACE('',(#42),#23,.F.);
#253=ADVANCED_FACE('',(#43),#24,.F.);
#254=ADVANCED_FACE('',(#44),#30,.T.);
#255=ADVANCED_FACE('',(#45),#25,.T.);
#256=ADVANCED_FACE('',(#46),#31,.T.);
#257=ADVANCED_FACE('',(#47),#26,.F.);
#258=CLOSED_SHELL('',(#242,#243,#244,#245,#246,#247,#248,#249,#250,#251,
#252,#253,#254,#255,#256,#257));
#259=DERIVED_UNIT_ELEMENT(#261,1.);
#260=DERIVED_UNIT_ELEMENT(#476,3.);
#261=(
MASS_UNIT()
NAMED_UNIT(*)
SI_UNIT($,.GRAM.)
);
#262=DERIVED_UNIT((#259,#260));
#263=MEASURE_REPRESENTATION_ITEM('density measure',
POSITIVE_RATIO_MEASURE(1.),#262);
#264=PROPERTY_DEFINITION_REPRESENTATION(#269,#266);
#265=PROPERTY_DEFINITION_REPRESENTATION(#270,#267);
#266=REPRESENTATION('material name',(#268),#473);
#267=REPRESENTATION('density',(#263),#473);
#268=DESCRIPTIVE_REPRESENTATION_ITEM('\X2\C77CBC18\X0\','\X2\C77CBC18\X0\');
#269=PROPERTY_DEFINITION('material property','material name',#483);
#270=PROPERTY_DEFINITION('material property','density of part',#483);
#271=DATE_TIME_ROLE('creation_date');
#272=APPLIED_DATE_AND_TIME_ASSIGNMENT(#273,#271,(#483));
#273=DATE_AND_TIME(#274,#275);
#274=CALENDAR_DATE(2018,17,12);
#275=LOCAL_TIME(1,36,28.,#276);
#276=COORDINATED_UNIVERSAL_TIME_OFFSET(0,0,.BEHIND.);
#277=AXIS2_PLACEMENT_3D('placement',#398,#312,#313);
#278=AXIS2_PLACEMENT_3D('',#399,#314,#315);
#279=AXIS2_PLACEMENT_3D('',#401,#316,#317);
#280=AXIS2_PLACEMENT_3D('',#404,#319,#320);
#281=AXIS2_PLACEMENT_3D('',#405,#321,#322);
#282=AXIS2_PLACEMENT_3D('',#408,#324,#325);
#283=AXIS2_PLACEMENT_3D('',#409,#326,#327);
#284=AXIS2_PLACEMENT_3D('',#411,#328,#329);
#285=AXIS2_PLACEMENT_3D('',#412,#330,#331);
#286=AXIS2_PLACEMENT_3D('',#415,#333,#334);
#287=AXIS2_PLACEMENT_3D('',#416,#335,#336);
#288=AXIS2_PLACEMENT_3D('',#418,#337,#338);
#289=AXIS2_PLACEMENT_3D('',#419,#339,#340);
#290=AXIS2_PLACEMENT_3D('',#424,#342,#343);
#291=AXIS2_PLACEMENT_3D('',#426,#344,#345);
#292=AXIS2_PLACEMENT_3D('',#429,#347,#348);
#293=AXIS2_PLACEMENT_3D('',#430,#349,#350);
#294=AXIS2_PLACEMENT_3D('',#431,#351,#352);
#295=AXIS2_PLACEMENT_3D('',#433,#353,#354);
#296=AXIS2_PLACEMENT_3D('',#434,#355,#356);
#297=AXIS2_PLACEMENT_3D('',#438,#358,#359);
#298=AXIS2_PLACEMENT_3D('',#440,#360,#361);
#299=AXIS2_PLACEMENT_3D('',#442,#363,#364);
#300=AXIS2_PLACEMENT_3D('',#446,#366,#367);
#301=AXIS2_PLACEMENT_3D('',#448,#369,#370);
#302=AXIS2_PLACEMENT_3D('',#452,#373,#374);
#303=AXIS2_PLACEMENT_3D('',#456,#376,#377);
#304=AXIS2_PLACEMENT_3D('',#457,#378,#379);
#305=AXIS2_PLACEMENT_3D('',#458,#380,#381);
#306=AXIS2_PLACEMENT_3D('',#460,#383,#384);
#307=AXIS2_PLACEMENT_3D('',#462,#385,#386);
#308=AXIS2_PLACEMENT_3D('',#465,#389,#390);
#309=AXIS2_PLACEMENT_3D('',#466,#391,#392);
#310=AXIS2_PLACEMENT_3D('',#468,#393,#394);
#311=AXIS2_PLACEMENT_3D('',#470,#396,#397);
#312=DIRECTION('axis',(0.,0.,1.));
#313=DIRECTION('refdir',(1.,0.,0.));
#314=DIRECTION('center_axis',(0.,0.,1.));
#315=DIRECTION('ref_axis',(-1.,0.,0.));
#316=DIRECTION('center_axis',(0.,0.,1.));
#317=DIRECTION('ref_axis',(-1.,0.,0.));
#318=DIRECTION('',(0.70710678118655,-8.65956056235496E-17,0.707106781186545));
#319=DIRECTION('center_axis',(0.,0.,-1.));
#320=DIRECTION('ref_axis',(-1.,0.,0.));
#321=DIRECTION('center_axis',(0.,0.,-1.));
#322=DIRECTION('ref_axis',(-1.,0.,0.));
#323=DIRECTION('',(0.,0.,1.));
#324=DIRECTION('center_axis',(0.,0.,1.));
#325=DIRECTION('ref_axis',(-1.,0.,0.));
#326=DIRECTION('center_axis',(0.,0.,1.));
#327=DIRECTION('ref_axis',(1.,0.,0.));
#328=DIRECTION('center_axis',(0.,0.,1.));
#329=DIRECTION('ref_axis',(1.,0.,0.));
#330=DIRECTION('center_axis',(0.,0.,-1.));
#331=DIRECTION('ref_axis',(-1.,0.,0.));
#332=DIRECTION('',(-0.707106781186548,8.65956056235494E-17,0.707106781186547));
#333=DIRECTION('center_axis',(0.,0.,-1.));
#334=DIRECTION('ref_axis',(-1.,0.,0.));
#335=DIRECTION('center_axis',(0.,0.,1.));
#336=DIRECTION('ref_axis',(1.,0.,0.));
#337=DIRECTION('center_axis',(0.,0.,-1.));
#338=DIRECTION('ref_axis',(-1.,0.,0.));
#339=DIRECTION('center_axis',(0.,0.,-1.));
#340=DIRECTION('ref_axis',(0.,1.,0.));
#341=DIRECTION('',(0.,0.,-1.));
#342=DIRECTION('center_axis',(0.,0.,-1.));
#343=DIRECTION('ref_axis',(1.,0.,0.));
#344=DIRECTION('center_axis',(0.,0.,-1.));
#345=DIRECTION('ref_axis',(1.,0.,0.));
#346=DIRECTION('',(0.,0.,1.));
#347=DIRECTION('center_axis',(0.,0.,-1.));
#348=DIRECTION('ref_axis',(0.,1.,0.));
#349=DIRECTION('center_axis',(6.12323399573677E-17,0.,1.));
#350=DIRECTION('ref_axis',(1.,0.,0.));
#351=DIRECTION('center_axis',(0.,0.,-1.));
#352=DIRECTION('ref_axis',(1.,0.,0.));
#353=DIRECTION('center_axis',(1.22464679914735E-16,-1.,0.));
#354=DIRECTION('ref_axis',(-1.,-1.22464679914735E-16,0.));
#355=DIRECTION('center_axis',(0.,0.,-1.));
#356=DIRECTION('ref_axis',(1.,0.,0.));
#357=DIRECTION('',(1.,0.,0.));
#358=DIRECTION('center_axis',(0.,0.,-1.));
#359=DIRECTION('ref_axis',(-1.,0.,0.));
#360=DIRECTION('center_axis',(0.,0.,-1.));
#361=DIRECTION('ref_axis',(-1.,0.,0.));
#362=DIRECTION('',(1.,0.,0.));
#363=DIRECTION('center_axis',(0.,0.,-1.));
#364=DIRECTION('ref_axis',(1.,0.,0.));
#365=DIRECTION('',(0.,0.,-1.));
#366=DIRECTION('center_axis',(0.,0.,1.));
#367=DIRECTION('ref_axis',(1.,0.,0.));
#368=DIRECTION('',(0.,0.,1.));
#369=DIRECTION('center_axis',(0.,-1.,0.));
#370=DIRECTION('ref_axis',(0.,0.,-1.));
#371=DIRECTION('',(-1.,0.,0.));
#372=DIRECTION('',(0.,0.,1.));
#373=DIRECTION('center_axis',(0.,0.,1.));
#374=DIRECTION('ref_axis',(-1.,0.,0.));
#375=DIRECTION('',(-1.,0.,0.));
#376=DIRECTION('center_axis',(0.,0.,1.));
#377=DIRECTION('ref_axis',(-1.,0.,0.));
#378=DIRECTION('center_axis',(0.,0.,1.));
#379=DIRECTION('ref_axis',(-1.,0.,0.));
#380=DIRECTION('center_axis',(0.,-1.,0.));
#381=DIRECTION('ref_axis',(0.,0.,-1.));
#382=DIRECTION('',(0.,0.,-1.));
#383=DIRECTION('center_axis',(0.,0.,1.));
#384=DIRECTION('ref_axis',(-1.,0.,0.));
#385=DIRECTION('center_axis',(0.,0.,1.));
#386=DIRECTION('ref_axis',(-1.,0.,0.));
#387=DIRECTION('',(0.,0.,-1.));
#388=DIRECTION('',(0.,0.,-1.));
#389=DIRECTION('center_axis',(0.,0.,1.));
#390=DIRECTION('ref_axis',(1.,0.,0.));
#391=DIRECTION('center_axis',(0.,0.,-1.));
#392=DIRECTION('ref_axis',(1.,0.,0.));
#393=DIRECTION('center_axis',(0.,0.,-1.));
#394=DIRECTION('ref_axis',(1.,0.,0.));
#395=DIRECTION('',(0.,0.,1.));
#396=DIRECTION('center_axis',(0.,0.,1.));
#397=DIRECTION('ref_axis',(1.,0.,0.));
#398=CARTESIAN_POINT('',(0.,0.,0.));
#399=CARTESIAN_POINT('Origin',(0.,0.,-14.925));
#400=CARTESIAN_POINT('',(1.35,1.65327317884893E-16,-15.));
#401=CARTESIAN_POINT('Origin',(0.,0.,-15.));
#402=CARTESIAN_POINT('',(1.5,-1.83697019872103E-16,-14.85));
#403=CARTESIAN_POINT('',(1.425,-1.74512168878498E-16,-14.925));
#404=CARTESIAN_POINT('Origin',(0.,0.,-14.85));
#405=CARTESIAN_POINT('Origin',(0.,0.,0.));
#406=CARTESIAN_POINT('',(1.5,1.83697019872103E-16,-0.15));
#407=CARTESIAN_POINT('',(1.5,-1.83697019872103E-16,0.));
#408=CARTESIAN_POINT('Origin',(0.,0.,-0.15));
#409=CARTESIAN_POINT('Origin',(-1.69505727298391E-16,3.85494105772624E-17,
-15.));
#410=CARTESIAN_POINT('',(-0.65,7.9602041944578E-17,-15.));
#411=CARTESIAN_POINT('Origin',(0.,0.,-15.));
#412=CARTESIAN_POINT('Origin',(0.,0.,-0.075));
#413=CARTESIAN_POINT('',(1.35,-1.65327317884893E-16,0.));
#414=CARTESIAN_POINT('',(1.425,-1.74512168878498E-16,-0.075));
#415=CARTESIAN_POINT('Origin',(0.,0.,0.));
#416=CARTESIAN_POINT('Origin',(-1.69505727298391E-16,3.85494105772624E-17,
0.));
#417=CARTESIAN_POINT('',(0.75,9.18485099360515E-17,0.));
#418=CARTESIAN_POINT('Origin',(0.,0.,0.));
#419=CARTESIAN_POINT('Origin',(0.,0.,12.8746076824454));
#420=CARTESIAN_POINT('',(-0.49749371855331,-0.05,13.2496076824454));
#421=CARTESIAN_POINT('',(-0.49749371855331,-0.05,12.4996076824454));
#422=CARTESIAN_POINT('',(-0.49749371855331,-0.05,14.));
#423=CARTESIAN_POINT('',(-0.5,-6.12323399573677E-17,13.2496076824454));
#424=CARTESIAN_POINT('Origin',(0.,0.,13.2496076824454));
#425=CARTESIAN_POINT('',(0.49749371855331,-0.05,13.2496076824454));
#426=CARTESIAN_POINT('Origin',(0.,0.,13.2496076824454));
#427=CARTESIAN_POINT('',(0.49749371855331,-0.05,12.4996076824454));
#428=CARTESIAN_POINT('',(0.49749371855331,-0.05,14.));
#429=CARTESIAN_POINT('Origin',(0.,0.,12.4996076824454));
#430=CARTESIAN_POINT('Origin',(0.,0.,13.2496076824454));
#431=CARTESIAN_POINT('Origin',(0.,0.,13.2496076824454));
#432=CARTESIAN_POINT('',(-3.06161699786838E-17,-3.74939945665464E-33,13.7496076824454));
#433=CARTESIAN_POINT('Origin',(0.,0.,13.2496076824454));
#434=CARTESIAN_POINT('Origin',(-0.750000000000001,0.75,12.4996076824454));
#435=CARTESIAN_POINT('',(0.748331477354788,-0.05,12.4996076824454));
#436=CARTESIAN_POINT('',(-0.750000000000001,-0.05,12.4996076824454));
#437=CARTESIAN_POINT('',(0.75,9.18485099360515E-17,12.4996076824454));
#438=CARTESIAN_POINT('Origin',(0.,0.,12.4996076824454));
#439=CARTESIAN_POINT('',(-0.748331477354788,-0.05,12.4996076824454));
#440=CARTESIAN_POINT('Origin',(0.,0.,12.4996076824454));
#441=CARTESIAN_POINT('',(-0.750000000000001,-0.05,12.4996076824454));
#442=CARTESIAN_POINT('Origin',(0.,0.,14.));
#443=CARTESIAN_POINT('',(-0.49749371855331,-0.05,14.));
#444=CARTESIAN_POINT('',(-0.49749371855331,-0.05,14.));
#445=CARTESIAN_POINT('',(0.49749371855331,-0.05,14.));
#446=CARTESIAN_POINT('Origin',(0.,0.,14.));
#447=CARTESIAN_POINT('',(0.49749371855331,-0.05,14.));
#448=CARTESIAN_POINT('Origin',(-5.55111512312578E-16,-0.05,13.2498038412227));
#449=CARTESIAN_POINT('',(0.748331477354788,-0.05,14.));
#450=CARTESIAN_POINT('',(0.75,-0.05,14.));
#451=CARTESIAN_POINT('',(0.748331477354788,-0.05,0.));
#452=CARTESIAN_POINT('Origin',(0.75,0.75,14.));
#453=CARTESIAN_POINT('',(-0.748331477354788,-0.05,14.));
#454=CARTESIAN_POINT('',(0.75,-0.05,14.));
#455=CARTESIAN_POINT('',(0.75,9.18485099360515E-17,14.));
#456=CARTESIAN_POINT('Origin',(0.,0.,14.));
#457=CARTESIAN_POINT('Origin',(0.,0.,14.));
#458=CARTESIAN_POINT('Origin',(-5.55111512312578E-16,-0.05,13.2498038412227));
#459=CARTESIAN_POINT('',(-0.748331477354788,-0.05,0.));
#460=CARTESIAN_POINT('Origin',(0.,0.,0.));
#461=CARTESIAN_POINT('',(0.75,9.18485099360515E-17,15.));
#462=CARTESIAN_POINT('Origin',(0.,0.,15.));
#463=CARTESIAN_POINT('',(0.75,9.18485099360515E-17,0.));
#464=CARTESIAN_POINT('',(0.75,9.18485099360515E-17,0.));
#465=CARTESIAN_POINT('Origin',(-8.47528636491957E-17,1.92747052886312E-17,
15.));
#466=CARTESIAN_POINT('Origin',(0.,0.,-15.));
#467=CARTESIAN_POINT('',(-0.65,7.9602041944578E-17,-85.));
#468=CARTESIAN_POINT('Origin',(0.,0.,-85.));
#469=CARTESIAN_POINT('',(-0.65,7.9602041944578E-17,-15.));
#470=CARTESIAN_POINT('Origin',(2.88735480591867E-17,0.,-85.));
#471=UNCERTAINTY_MEASURE_WITH_UNIT(LENGTH_MEASURE(0.01),#475,
'DISTANCE_ACCURACY_VALUE',
'Maximum model space distance between geometric entities at asserted c
onnectivities');
#472=UNCERTAINTY_MEASURE_WITH_UNIT(LENGTH_MEASURE(0.01),#475,
'DISTANCE_ACCURACY_VALUE',
'Maximum model space distance between geometric entities at asserted c
onnectivities');
#473=(
GEOMETRIC_REPRESENTATION_CONTEXT(3)
GLOBAL_UNCERTAINTY_ASSIGNED_CONTEXT((#471))
GLOBAL_UNIT_ASSIGNED_CONTEXT((#475,#478,#477))
REPRESENTATION_CONTEXT('','3D')
);
#474=(
GEOMETRIC_REPRESENTATION_CONTEXT(3)
GLOBAL_UNCERTAINTY_ASSIGNED_CONTEXT((#472))
GLOBAL_UNIT_ASSIGNED_CONTEXT((#475,#478,#477))
REPRESENTATION_CONTEXT('','3D')
);
#475=(
LENGTH_UNIT()
NAMED_UNIT(*)
SI_UNIT(.MILLI.,.METRE.)
);
#476=(
LENGTH_UNIT()
NAMED_UNIT(*)
SI_UNIT(.CENTI.,.METRE.)
);
#477=(
NAMED_UNIT(*)
SI_UNIT($,.STERADIAN.)
SOLID_ANGLE_UNIT()
);
#478=(
NAMED_UNIT(*)
PLANE_ANGLE_UNIT()
SI_UNIT($,.RADIAN.)
);
#479=SHAPE_DEFINITION_REPRESENTATION(#480,#481);
#480=PRODUCT_DEFINITION_SHAPE('',$,#483);
#481=SHAPE_REPRESENTATION('',(#277),#473);
#482=PRODUCT_DEFINITION_CONTEXT('part definition',#487,'design');
#483=PRODUCT_DEFINITION('GPF-T007-2','GPF-T007-2',#484,#482);
#484=PRODUCT_DEFINITION_FORMATION('',$,#489);
#485=PRODUCT_RELATED_PRODUCT_CATEGORY('GPF-T007-2','GPF-T007-2',(#489));
#486=APPLICATION_PROTOCOL_DEFINITION('international standard',
'automotive_design',2009,#487);
#487=APPLICATION_CONTEXT(
'Core Data for Automotive Mechanical Design Process');
#488=PRODUCT_CONTEXT('part definition',#487,'mechanical');
#489=PRODUCT('GPF-T007-2','GPF-T007-2',$,(#488));
#490=PRESENTATION_STYLE_ASSIGNMENT((#492));
#491=PRESENTATION_STYLE_ASSIGNMENT((#493));
#492=SURFACE_STYLE_USAGE(.BOTH.,#494);
#493=SURFACE_STYLE_USAGE(.BOTH.,#495);
#494=SURFACE_SIDE_STYLE('',(#496));
#495=SURFACE_SIDE_STYLE('',(#497));
#496=SURFACE_STYLE_FILL_AREA(#498);
#497=SURFACE_STYLE_FILL_AREA(#499);
#498=FILL_AREA_STYLE('',(#500));
#499=FILL_AREA_STYLE('',(#501));
#500=FILL_AREA_STYLE_COLOUR('',#502);
#501=FILL_AREA_STYLE_COLOUR('',#503);
#502=COLOUR_RGB('',0.749019607843137,0.749019607843137,0.749019607843137);
#503=COLOUR_RGB('',0.8,0.,0.);
ENDSEC;
END-ISO-10303-21;
