ISO-10303-21;
HEADER;
/* Generated by software containing ST-Developer
 * from STEP Tools, Inc. (www.steptools.com) 
 */

FILE_DESCRIPTION(
/* description */ (''),
/* implementation_level */ '2;1');

FILE_NAME(
/* name */ 
'C:\\Users\\user\\Desktop\\FA\X2\C2DCC2A4D15C\X0\\\3D \X2\B3C4BA74\X0\\\
GPF-D052-ST-2.0\\GPF-D052-ST-2.0.stp',
/* time_stamp */ '2018-12-14T17:45:12+09:00',
/* author */ ('user'),
/* organization */ (''),
/* preprocessor_version */ 'ST-DEVELOPER v17',
/* originating_system */ 'Autodesk Inventor 2018',
/* authorisation */ '');

FILE_SCHEMA (('AUTOMOTIVE_DESIGN { 1 0 10303 214 3 1 1 }'));
ENDSEC;

DATA;
#10=MECHANICAL_DESIGN_GEOMETRIC_PRESENTATION_REPRESENTATION('',(#316,#317,
#318),#588);
#11=SHAPE_REPRESENTATION_RELATIONSHIP('SRR','None',#595,#12);
#12=ADVANCED_BREP_SHAPE_REPRESENTATION('',(#13),#587);
#13=MANIFOLD_SOLID_BREP('\X2\C194B9ACB4DC\X0\5',#338);
#14=FACE_BOUND('',#123,.T.);
#15=FACE_BOUND('',#124,.T.);
#16=FACE_BOUND('',#128,.T.);
#17=FACE_BOUND('',#130,.T.);
#18=FACE_BOUND('',#134,.T.);
#19=FACE_BOUND('',#135,.T.);
#20=FACE_BOUND('',#137,.T.);
#21=FACE_BOUND('',#138,.T.);
#22=PLANE('',#379);
#23=PLANE('',#383);
#24=PLANE('',#384);
#25=PLANE('',#385);
#26=PLANE('',#386);
#27=PLANE('',#387);
#28=PLANE('',#388);
#29=PLANE('',#389);
#30=PLANE('',#390);
#31=PLANE('',#391);
#32=PLANE('',#392);
#33=CYLINDRICAL_SURFACE('',#367,1.55);
#34=CYLINDRICAL_SURFACE('',#374,1.55);
#35=CYLINDRICAL_SURFACE('',#376,1.45);
#36=CYLINDRICAL_SURFACE('',#380,1.45);
#37=LINE('',#505,#64);
#38=LINE('',#511,#65);
#39=LINE('',#519,#66);
#40=LINE('',#525,#67);
#41=LINE('',#531,#68);
#42=LINE('',#538,#69);
#43=LINE('',#544,#70);
#44=LINE('',#546,#71);
#45=LINE('',#548,#72);
#46=LINE('',#550,#73);
#47=LINE('',#552,#74);
#48=LINE('',#554,#75);
#49=LINE('',#555,#76);
#50=LINE('',#558,#77);
#51=LINE('',#560,#78);
#52=LINE('',#561,#79);
#53=LINE('',#564,#80);
#54=LINE('',#565,#81);
#55=LINE('',#568,#82);
#56=LINE('',#569,#83);
#57=LINE('',#572,#84);
#58=LINE('',#573,#85);
#59=LINE('',#576,#86);
#60=LINE('',#577,#87);
#61=LINE('',#580,#88);
#62=LINE('',#581,#89);
#63=LINE('',#583,#90);
#64=VECTOR('',#409,2.275);
#65=VECTOR('',#416,1.55);
#66=VECTOR('',#425,2.275);
#67=VECTOR('',#432,1.55);
#68=VECTOR('',#439,1.45);
#69=VECTOR('',#448,1.45);
#70=VECTOR('',#455,10.);
#71=VECTOR('',#456,10.);
#72=VECTOR('',#457,10.);
#73=VECTOR('',#458,10.);
#74=VECTOR('',#459,10.);
#75=VECTOR('',#460,10.);
#76=VECTOR('',#461,10.);
#77=VECTOR('',#464,10.);
#78=VECTOR('',#465,10.);
#79=VECTOR('',#466,10.);
#80=VECTOR('',#469,10.);
#81=VECTOR('',#470,10.);
#82=VECTOR('',#473,10.);
#83=VECTOR('',#474,10.);
#84=VECTOR('',#477,10.);
#85=VECTOR('',#478,10.);
#86=VECTOR('',#481,10.);
#87=VECTOR('',#482,10.);
#88=VECTOR('',#485,10.);
#89=VECTOR('',#486,10.);
#90=VECTOR('',#489,10.);
#91=CONICAL_SURFACE('',#362,2.275,0.785398163397448);
#92=CONICAL_SURFACE('',#369,2.275,0.785398163397448);
#93=FACE_OUTER_BOUND('',#112,.T.);
#94=FACE_OUTER_BOUND('',#113,.T.);
#95=FACE_OUTER_BOUND('',#114,.T.);
#96=FACE_OUTER_BOUND('',#115,.T.);
#97=FACE_OUTER_BOUND('',#116,.T.);
#98=FACE_OUTER_BOUND('',#117,.T.);
#99=FACE_OUTER_BOUND('',#118,.T.);
#100=FACE_OUTER_BOUND('',#119,.T.);
#101=FACE_OUTER_BOUND('',#120,.T.);
#102=FACE_OUTER_BOUND('',#121,.T.);
#103=FACE_OUTER_BOUND('',#122,.T.);
#104=FACE_OUTER_BOUND('',#125,.T.);
#105=FACE_OUTER_BOUND('',#126,.T.);
#106=FACE_OUTER_BOUND('',#127,.T.);
#107=FACE_OUTER_BOUND('',#129,.T.);
#108=FACE_OUTER_BOUND('',#131,.T.);
#109=FACE_OUTER_BOUND('',#132,.T.);
#110=FACE_OUTER_BOUND('',#133,.T.);
#111=FACE_OUTER_BOUND('',#136,.T.);
#112=EDGE_LOOP('',(#228));
#113=EDGE_LOOP('',(#229));
#114=EDGE_LOOP('',(#230,#231,#232,#233,#234,#235));
#115=EDGE_LOOP('',(#236,#237,#238,#239,#240));
#116=EDGE_LOOP('',(#241,#242,#243,#244,#245,#246));
#117=EDGE_LOOP('',(#247,#248,#249,#250,#251));
#118=EDGE_LOOP('',(#252,#253,#254,#255));
#119=EDGE_LOOP('',(#256));
#120=EDGE_LOOP('',(#257,#258,#259,#260));
#121=EDGE_LOOP('',(#261));
#122=EDGE_LOOP('',(#262,#263,#264,#265,#266,#267,#268));
#123=EDGE_LOOP('',(#269));
#124=EDGE_LOOP('',(#270));
#125=EDGE_LOOP('',(#271,#272,#273,#274));
#126=EDGE_LOOP('',(#275,#276,#277,#278));
#127=EDGE_LOOP('',(#279,#280,#281,#282));
#128=EDGE_LOOP('',(#283));
#129=EDGE_LOOP('',(#284,#285,#286,#287));
#130=EDGE_LOOP('',(#288));
#131=EDGE_LOOP('',(#289,#290,#291,#292));
#132=EDGE_LOOP('',(#293,#294,#295,#296));
#133=EDGE_LOOP('',(#297,#298,#299,#300));
#134=EDGE_LOOP('',(#301));
#135=EDGE_LOOP('',(#302));
#136=EDGE_LOOP('',(#303,#304,#305,#306,#307,#308,#309));
#137=EDGE_LOOP('',(#310,#311));
#138=EDGE_LOOP('',(#312,#313));
#139=CIRCLE('',#359,2.52855879001457);
#140=CIRCLE('',#361,2.52855879001453);
#141=CIRCLE('',#363,3.);
#142=CIRCLE('',#364,3.);
#143=CIRCLE('',#365,1.55);
#144=CIRCLE('',#366,1.55);
#145=CIRCLE('',#368,1.55);
#146=CIRCLE('',#370,3.);
#147=CIRCLE('',#371,3.);
#148=CIRCLE('',#372,1.55);
#149=CIRCLE('',#373,1.55);
#150=CIRCLE('',#375,1.55);
#151=CIRCLE('',#377,1.45);
#152=CIRCLE('',#378,1.45);
#153=CIRCLE('',#381,1.45);
#154=CIRCLE('',#382,1.45);
#155=VERTEX_POINT('',#494);
#156=VERTEX_POINT('',#497);
#157=VERTEX_POINT('',#500);
#158=VERTEX_POINT('',#501);
#159=VERTEX_POINT('',#504);
#160=VERTEX_POINT('',#506);
#161=VERTEX_POINT('',#510);
#162=VERTEX_POINT('',#514);
#163=VERTEX_POINT('',#515);
#164=VERTEX_POINT('',#518);
#165=VERTEX_POINT('',#520);
#166=VERTEX_POINT('',#524);
#167=VERTEX_POINT('',#528);
#168=VERTEX_POINT('',#530);
#169=VERTEX_POINT('',#535);
#170=VERTEX_POINT('',#537);
#171=VERTEX_POINT('',#542);
#172=VERTEX_POINT('',#543);
#173=VERTEX_POINT('',#545);
#174=VERTEX_POINT('',#547);
#175=VERTEX_POINT('',#549);
#176=VERTEX_POINT('',#551);
#177=VERTEX_POINT('',#553);
#178=VERTEX_POINT('',#557);
#179=VERTEX_POINT('',#559);
#180=VERTEX_POINT('',#563);
#181=VERTEX_POINT('',#567);
#182=VERTEX_POINT('',#571);
#183=VERTEX_POINT('',#575);
#184=VERTEX_POINT('',#579);
#185=EDGE_CURVE('',#155,#155,#139,.T.);
#186=EDGE_CURVE('',#156,#156,#140,.T.);
#187=EDGE_CURVE('',#157,#158,#141,.T.);
#188=EDGE_CURVE('',#158,#157,#142,.T.);
#189=EDGE_CURVE('',#158,#159,#37,.T.);
#190=EDGE_CURVE('',#160,#159,#143,.T.);
#191=EDGE_CURVE('',#159,#160,#144,.T.);
#192=EDGE_CURVE('',#159,#161,#38,.T.);
#193=EDGE_CURVE('',#161,#161,#145,.T.);
#194=EDGE_CURVE('',#162,#163,#146,.T.);
#195=EDGE_CURVE('',#163,#162,#147,.T.);
#196=EDGE_CURVE('',#163,#164,#39,.T.);
#197=EDGE_CURVE('',#165,#164,#148,.T.);
#198=EDGE_CURVE('',#164,#165,#149,.T.);
#199=EDGE_CURVE('',#164,#166,#40,.T.);
#200=EDGE_CURVE('',#166,#166,#150,.T.);
#201=EDGE_CURVE('',#167,#167,#151,.T.);
#202=EDGE_CURVE('',#167,#168,#41,.T.);
#203=EDGE_CURVE('',#168,#168,#152,.T.);
#204=EDGE_CURVE('',#169,#169,#153,.T.);
#205=EDGE_CURVE('',#169,#170,#42,.T.);
#206=EDGE_CURVE('',#170,#170,#154,.T.);
#207=EDGE_CURVE('',#171,#172,#43,.T.);
#208=EDGE_CURVE('',#172,#173,#44,.T.);
#209=EDGE_CURVE('',#173,#174,#45,.T.);
#210=EDGE_CURVE('',#174,#175,#46,.T.);
#211=EDGE_CURVE('',#175,#176,#47,.T.);
#212=EDGE_CURVE('',#176,#177,#48,.T.);
#213=EDGE_CURVE('',#177,#171,#49,.T.);
#214=EDGE_CURVE('',#178,#172,#50,.T.);
#215=EDGE_CURVE('',#179,#178,#51,.T.);
#216=EDGE_CURVE('',#179,#173,#52,.T.);
#217=EDGE_CURVE('',#180,#179,#53,.T.);
#218=EDGE_CURVE('',#180,#174,#54,.T.);
#219=EDGE_CURVE('',#181,#180,#55,.T.);
#220=EDGE_CURVE('',#181,#175,#56,.T.);
#221=EDGE_CURVE('',#182,#181,#57,.T.);
#222=EDGE_CURVE('',#182,#176,#58,.T.);
#223=EDGE_CURVE('',#183,#182,#59,.T.);
#224=EDGE_CURVE('',#183,#177,#60,.T.);
#225=EDGE_CURVE('',#184,#183,#61,.T.);
#226=EDGE_CURVE('',#171,#184,#62,.T.);
#227=EDGE_CURVE('',#178,#184,#63,.T.);
#228=ORIENTED_EDGE('',*,*,#185,.F.);
#229=ORIENTED_EDGE('',*,*,#186,.F.);
#230=ORIENTED_EDGE('',*,*,#187,.F.);
#231=ORIENTED_EDGE('',*,*,#188,.F.);
#232=ORIENTED_EDGE('',*,*,#189,.T.);
#233=ORIENTED_EDGE('',*,*,#190,.F.);
#234=ORIENTED_EDGE('',*,*,#191,.F.);
#235=ORIENTED_EDGE('',*,*,#189,.F.);
#236=ORIENTED_EDGE('',*,*,#190,.T.);
#237=ORIENTED_EDGE('',*,*,#192,.T.);
#238=ORIENTED_EDGE('',*,*,#193,.F.);
#239=ORIENTED_EDGE('',*,*,#192,.F.);
#240=ORIENTED_EDGE('',*,*,#191,.T.);
#241=ORIENTED_EDGE('',*,*,#194,.F.);
#242=ORIENTED_EDGE('',*,*,#195,.F.);
#243=ORIENTED_EDGE('',*,*,#196,.T.);
#244=ORIENTED_EDGE('',*,*,#197,.F.);
#245=ORIENTED_EDGE('',*,*,#198,.F.);
#246=ORIENTED_EDGE('',*,*,#196,.F.);
#247=ORIENTED_EDGE('',*,*,#197,.T.);
#248=ORIENTED_EDGE('',*,*,#199,.T.);
#249=ORIENTED_EDGE('',*,*,#200,.F.);
#250=ORIENTED_EDGE('',*,*,#199,.F.);
#251=ORIENTED_EDGE('',*,*,#198,.T.);
#252=ORIENTED_EDGE('',*,*,#201,.F.);
#253=ORIENTED_EDGE('',*,*,#202,.T.);
#254=ORIENTED_EDGE('',*,*,#203,.F.);
#255=ORIENTED_EDGE('',*,*,#202,.F.);
#256=ORIENTED_EDGE('',*,*,#201,.T.);
#257=ORIENTED_EDGE('',*,*,#204,.F.);
#258=ORIENTED_EDGE('',*,*,#205,.T.);
#259=ORIENTED_EDGE('',*,*,#206,.F.);
#260=ORIENTED_EDGE('',*,*,#205,.F.);
#261=ORIENTED_EDGE('',*,*,#204,.T.);
#262=ORIENTED_EDGE('',*,*,#207,.T.);
#263=ORIENTED_EDGE('',*,*,#208,.T.);
#264=ORIENTED_EDGE('',*,*,#209,.T.);
#265=ORIENTED_EDGE('',*,*,#210,.T.);
#266=ORIENTED_EDGE('',*,*,#211,.T.);
#267=ORIENTED_EDGE('',*,*,#212,.T.);
#268=ORIENTED_EDGE('',*,*,#213,.T.);
#269=ORIENTED_EDGE('',*,*,#193,.T.);
#270=ORIENTED_EDGE('',*,*,#200,.T.);
#271=ORIENTED_EDGE('',*,*,#214,.F.);
#272=ORIENTED_EDGE('',*,*,#215,.F.);
#273=ORIENTED_EDGE('',*,*,#216,.T.);
#274=ORIENTED_EDGE('',*,*,#208,.F.);
#275=ORIENTED_EDGE('',*,*,#216,.F.);
#276=ORIENTED_EDGE('',*,*,#217,.F.);
#277=ORIENTED_EDGE('',*,*,#218,.T.);
#278=ORIENTED_EDGE('',*,*,#209,.F.);
#279=ORIENTED_EDGE('',*,*,#218,.F.);
#280=ORIENTED_EDGE('',*,*,#219,.F.);
#281=ORIENTED_EDGE('',*,*,#220,.T.);
#282=ORIENTED_EDGE('',*,*,#210,.F.);
#283=ORIENTED_EDGE('',*,*,#185,.T.);
#284=ORIENTED_EDGE('',*,*,#220,.F.);
#285=ORIENTED_EDGE('',*,*,#221,.F.);
#286=ORIENTED_EDGE('',*,*,#222,.T.);
#287=ORIENTED_EDGE('',*,*,#211,.F.);
#288=ORIENTED_EDGE('',*,*,#186,.T.);
#289=ORIENTED_EDGE('',*,*,#222,.F.);
#290=ORIENTED_EDGE('',*,*,#223,.F.);
#291=ORIENTED_EDGE('',*,*,#224,.T.);
#292=ORIENTED_EDGE('',*,*,#212,.F.);
#293=ORIENTED_EDGE('',*,*,#224,.F.);
#294=ORIENTED_EDGE('',*,*,#225,.F.);
#295=ORIENTED_EDGE('',*,*,#226,.F.);
#296=ORIENTED_EDGE('',*,*,#213,.F.);
#297=ORIENTED_EDGE('',*,*,#226,.T.);
#298=ORIENTED_EDGE('',*,*,#227,.F.);
#299=ORIENTED_EDGE('',*,*,#214,.T.);
#300=ORIENTED_EDGE('',*,*,#207,.F.);
#301=ORIENTED_EDGE('',*,*,#203,.T.);
#302=ORIENTED_EDGE('',*,*,#206,.T.);
#303=ORIENTED_EDGE('',*,*,#227,.T.);
#304=ORIENTED_EDGE('',*,*,#225,.T.);
#305=ORIENTED_EDGE('',*,*,#223,.T.);
#306=ORIENTED_EDGE('',*,*,#221,.T.);
#307=ORIENTED_EDGE('',*,*,#219,.T.);
#308=ORIENTED_EDGE('',*,*,#217,.T.);
#309=ORIENTED_EDGE('',*,*,#215,.T.);
#310=ORIENTED_EDGE('',*,*,#187,.T.);
#311=ORIENTED_EDGE('',*,*,#188,.T.);
#312=ORIENTED_EDGE('',*,*,#194,.T.);
#313=ORIENTED_EDGE('',*,*,#195,.T.);
#314=SPHERICAL_SURFACE('',#358,10.6873751524611);
#315=SPHERICAL_SURFACE('',#360,10.6873751524615);
#316=STYLED_ITEM('',(#605),#319);
#317=STYLED_ITEM('',(#605),#320);
#318=STYLED_ITEM('',(#604),#13);
#319=ADVANCED_FACE('',(#93),#314,.T.);
#320=ADVANCED_FACE('',(#94),#315,.T.);
#321=ADVANCED_FACE('',(#95),#91,.F.);
#322=ADVANCED_FACE('',(#96),#33,.F.);
#323=ADVANCED_FACE('',(#97),#92,.F.);
#324=ADVANCED_FACE('',(#98),#34,.F.);
#325=ADVANCED_FACE('',(#99),#35,.T.);
#326=ADVANCED_FACE('',(#100),#22,.F.);
#327=ADVANCED_FACE('',(#101),#36,.T.);
#328=ADVANCED_FACE('',(#102),#23,.F.);
#329=ADVANCED_FACE('',(#103,#14,#15),#24,.T.);
#330=ADVANCED_FACE('',(#104),#25,.T.);
#331=ADVANCED_FACE('',(#105),#26,.T.);
#332=ADVANCED_FACE('',(#106,#16),#27,.T.);
#333=ADVANCED_FACE('',(#107,#17),#28,.T.);
#334=ADVANCED_FACE('',(#108),#29,.T.);
#335=ADVANCED_FACE('',(#109),#30,.T.);
#336=ADVANCED_FACE('',(#110,#18,#19),#31,.T.);
#337=ADVANCED_FACE('',(#111,#20,#21),#32,.T.);
#338=CLOSED_SHELL('',(#319,#320,#321,#322,#323,#324,#325,#326,#327,#328,
#329,#330,#331,#332,#333,#334,#335,#336,#337));
#339=DERIVED_UNIT_ELEMENT(#341,1.);
#340=DERIVED_UNIT_ELEMENT(#590,3.);
#341=(
MASS_UNIT()
NAMED_UNIT(*)
SI_UNIT($,.GRAM.)
);
#342=DERIVED_UNIT((#339,#340));
#343=MEASURE_REPRESENTATION_ITEM('density measure',
POSITIVE_RATIO_MEASURE(1.),#342);
#344=PROPERTY_DEFINITION_REPRESENTATION(#349,#346);
#345=PROPERTY_DEFINITION_REPRESENTATION(#350,#347);
#346=REPRESENTATION('material name',(#348),#587);
#347=REPRESENTATION('density',(#343),#587);
#348=DESCRIPTIVE_REPRESENTATION_ITEM('\X2\C77CBC18\X0\','\X2\C77CBC18\X0\');
#349=PROPERTY_DEFINITION('material property','material name',#597);
#350=PROPERTY_DEFINITION('material property','density of part',#597);
#351=DATE_TIME_ROLE('creation_date');
#352=APPLIED_DATE_AND_TIME_ASSIGNMENT(#353,#351,(#597));
#353=DATE_AND_TIME(#354,#355);
#354=CALENDAR_DATE(2018,14,12);
#355=LOCAL_TIME(8,27,8.,#356);
#356=COORDINATED_UNIVERSAL_TIME_OFFSET(0,0,.BEHIND.);
#357=AXIS2_PLACEMENT_3D('placement',#492,#393,#394);
#358=AXIS2_PLACEMENT_3D('',#493,#395,#396);
#359=AXIS2_PLACEMENT_3D('',#495,#397,#398);
#360=AXIS2_PLACEMENT_3D('',#496,#399,#400);
#361=AXIS2_PLACEMENT_3D('',#498,#401,#402);
#362=AXIS2_PLACEMENT_3D('',#499,#403,#404);
#363=AXIS2_PLACEMENT_3D('',#502,#405,#406);
#364=AXIS2_PLACEMENT_3D('',#503,#407,#408);
#365=AXIS2_PLACEMENT_3D('',#507,#410,#411);
#366=AXIS2_PLACEMENT_3D('',#508,#412,#413);
#367=AXIS2_PLACEMENT_3D('',#509,#414,#415);
#368=AXIS2_PLACEMENT_3D('',#512,#417,#418);
#369=AXIS2_PLACEMENT_3D('',#513,#419,#420);
#370=AXIS2_PLACEMENT_3D('',#516,#421,#422);
#371=AXIS2_PLACEMENT_3D('',#517,#423,#424);
#372=AXIS2_PLACEMENT_3D('',#521,#426,#427);
#373=AXIS2_PLACEMENT_3D('',#522,#428,#429);
#374=AXIS2_PLACEMENT_3D('',#523,#430,#431);
#375=AXIS2_PLACEMENT_3D('',#526,#433,#434);
#376=AXIS2_PLACEMENT_3D('',#527,#435,#436);
#377=AXIS2_PLACEMENT_3D('',#529,#437,#438);
#378=AXIS2_PLACEMENT_3D('',#532,#440,#441);
#379=AXIS2_PLACEMENT_3D('',#533,#442,#443);
#380=AXIS2_PLACEMENT_3D('',#534,#444,#445);
#381=AXIS2_PLACEMENT_3D('',#536,#446,#447);
#382=AXIS2_PLACEMENT_3D('',#539,#449,#450);
#383=AXIS2_PLACEMENT_3D('',#540,#451,#452);
#384=AXIS2_PLACEMENT_3D('',#541,#453,#454);
#385=AXIS2_PLACEMENT_3D('',#556,#462,#463);
#386=AXIS2_PLACEMENT_3D('',#562,#467,#468);
#387=AXIS2_PLACEMENT_3D('',#566,#471,#472);
#388=AXIS2_PLACEMENT_3D('',#570,#475,#476);
#389=AXIS2_PLACEMENT_3D('',#574,#479,#480);
#390=AXIS2_PLACEMENT_3D('',#578,#483,#484);
#391=AXIS2_PLACEMENT_3D('',#582,#487,#488);
#392=AXIS2_PLACEMENT_3D('',#584,#490,#491);
#393=DIRECTION('axis',(0.,0.,1.));
#394=DIRECTION('refdir',(1.,0.,0.));
#395=DIRECTION('center_axis',(0.,0.,1.));
#396=DIRECTION('ref_axis',(-0.98944645234638,0.144898992195125,0.));
#397=DIRECTION('center_axis',(0.988705506817883,-0.14987134745505,0.));
#398=DIRECTION('ref_axis',(0.,0.,-1.));
#399=DIRECTION('center_axis',(0.,0.,1.));
#400=DIRECTION('ref_axis',(-0.987939573421587,-0.154839914968886,0.));
#401=DIRECTION('center_axis',(0.988705506817883,0.149871347455051,0.));
#402=DIRECTION('ref_axis',(0.,0.,-1.));
#403=DIRECTION('center_axis',(0.,0.,1.));
#404=DIRECTION('ref_axis',(1.,0.,0.));
#405=DIRECTION('center_axis',(0.,0.,-1.));
#406=DIRECTION('ref_axis',(1.,0.,0.));
#407=DIRECTION('center_axis',(0.,0.,-1.));
#408=DIRECTION('ref_axis',(1.,0.,0.));
#409=DIRECTION('',(0.707106781186547,8.65956056235493E-17,-0.707106781186548));
#410=DIRECTION('center_axis',(0.,0.,1.));
#411=DIRECTION('ref_axis',(1.,0.,0.));
#412=DIRECTION('center_axis',(0.,0.,1.));
#413=DIRECTION('ref_axis',(1.,0.,0.));
#414=DIRECTION('center_axis',(0.,0.,1.));
#415=DIRECTION('ref_axis',(1.,0.,0.));
#416=DIRECTION('',(0.,0.,-1.));
#417=DIRECTION('center_axis',(0.,0.,1.));
#418=DIRECTION('ref_axis',(1.,0.,0.));
#419=DIRECTION('center_axis',(0.,0.,1.));
#420=DIRECTION('ref_axis',(1.,0.,0.));
#421=DIRECTION('center_axis',(0.,0.,-1.));
#422=DIRECTION('ref_axis',(1.,0.,0.));
#423=DIRECTION('center_axis',(0.,0.,-1.));
#424=DIRECTION('ref_axis',(1.,0.,0.));
#425=DIRECTION('',(0.707106781186547,8.65956056235493E-17,-0.707106781186548));
#426=DIRECTION('center_axis',(0.,0.,1.));
#427=DIRECTION('ref_axis',(1.,0.,0.));
#428=DIRECTION('center_axis',(0.,0.,1.));
#429=DIRECTION('ref_axis',(1.,0.,0.));
#430=DIRECTION('center_axis',(0.,0.,1.));
#431=DIRECTION('ref_axis',(1.,0.,0.));
#432=DIRECTION('',(0.,0.,-1.));
#433=DIRECTION('center_axis',(0.,0.,1.));
#434=DIRECTION('ref_axis',(1.,0.,0.));
#435=DIRECTION('center_axis',(1.,3.33066907387547E-16,0.));
#436=DIRECTION('ref_axis',(0.,0.,1.));
#437=DIRECTION('center_axis',(1.,3.31905239050869E-16,0.));
#438=DIRECTION('ref_axis',(0.,0.,1.));
#439=DIRECTION('',(-1.,-3.33066907387547E-16,0.));
#440=DIRECTION('center_axis',(-1.,-3.31905239050869E-16,0.));
#441=DIRECTION('ref_axis',(0.,0.,1.));
#442=DIRECTION('center_axis',(-1.,-3.31905239050869E-16,0.));
#443=DIRECTION('ref_axis',(0.,0.,1.));
#444=DIRECTION('center_axis',(1.,3.33066907387547E-16,0.));
#445=DIRECTION('ref_axis',(0.,0.,1.));
#446=DIRECTION('center_axis',(1.,3.31905239050869E-16,0.));
#447=DIRECTION('ref_axis',(0.,0.,1.));
#448=DIRECTION('',(-1.,-3.33066907387547E-16,0.));
#449=DIRECTION('center_axis',(-1.,-3.31905239050869E-16,0.));
#450=DIRECTION('ref_axis',(0.,0.,1.));
#451=DIRECTION('center_axis',(-1.,-3.31905239050869E-16,0.));
#452=DIRECTION('ref_axis',(0.,0.,1.));
#453=DIRECTION('center_axis',(0.,0.,-1.));
#454=DIRECTION('ref_axis',(-1.,0.,0.));
#455=DIRECTION('',(3.31905239050869E-16,-1.,0.));
#456=DIRECTION('',(-1.,-4.03717463500057E-16,0.));
#457=DIRECTION('',(-0.987688340595138,0.156434465040231,0.));
#458=DIRECTION('',(0.14987134745505,0.988705506817883,0.));
#459=DIRECTION('',(-0.149871347455051,0.988705506817883,0.));
#460=DIRECTION('',(0.987688340595138,0.156434465040231,0.));
#461=DIRECTION('',(1.,4.03717463500057E-16,0.));
#462=DIRECTION('center_axis',(4.03717463500057E-16,-1.,0.));
#463=DIRECTION('ref_axis',(1.,4.03717463500057E-16,0.));
#464=DIRECTION('',(0.,0.,-1.));
#465=DIRECTION('',(1.,4.03717463500057E-16,0.));
#466=DIRECTION('',(0.,0.,-1.));
#467=DIRECTION('center_axis',(-0.156434465040231,-0.987688340595138,0.));
#468=DIRECTION('ref_axis',(0.987688340595138,-0.156434465040231,0.));
#469=DIRECTION('',(0.987688340595138,-0.156434465040231,0.));
#470=DIRECTION('',(0.,0.,-1.));
#471=DIRECTION('center_axis',(-0.988705506817883,0.14987134745505,0.));
#472=DIRECTION('ref_axis',(-0.14987134745505,-0.988705506817883,0.));
#473=DIRECTION('',(-0.14987134745505,-0.988705506817883,0.));
#474=DIRECTION('',(0.,0.,-1.));
#475=DIRECTION('center_axis',(-0.988705506817883,-0.149871347455051,0.));
#476=DIRECTION('ref_axis',(0.149871347455051,-0.988705506817883,0.));
#477=DIRECTION('',(0.149871347455051,-0.988705506817883,0.));
#478=DIRECTION('',(0.,0.,-1.));
#479=DIRECTION('center_axis',(-0.156434465040231,0.987688340595138,0.));
#480=DIRECTION('ref_axis',(-0.987688340595138,-0.156434465040231,0.));
#481=DIRECTION('',(-0.987688340595138,-0.156434465040231,0.));
#482=DIRECTION('',(0.,0.,-1.));
#483=DIRECTION('center_axis',(-4.03717463500057E-16,1.,0.));
#484=DIRECTION('ref_axis',(-1.,-4.03717463500057E-16,0.));
#485=DIRECTION('',(-1.,-4.03717463500057E-16,0.));
#486=DIRECTION('',(0.,0.,1.));
#487=DIRECTION('center_axis',(1.,3.31905239050869E-16,0.));
#488=DIRECTION('ref_axis',(-3.31905239050869E-16,1.,0.));
#489=DIRECTION('',(-3.31905239050869E-16,1.,0.));
#490=DIRECTION('center_axis',(0.,0.,1.));
#491=DIRECTION('ref_axis',(1.,0.,0.));
#492=CARTESIAN_POINT('',(0.,0.,0.));
#493=CARTESIAN_POINT('Origin',(-21.9912503592907,-6.5562562932995,0.));
#494=CARTESIAN_POINT('',(-31.8789585129788,-2.5,0.));
#495=CARTESIAN_POINT('Origin',(-32.2579170259575,-5.,0.));
#496=CARTESIAN_POINT('Origin',(-21.9912503592903,6.55625629329958,0.));
#497=CARTESIAN_POINT('',(-32.6368755389363,7.5,0.));
#498=CARTESIAN_POINT('Origin',(-32.2579170259575,5.00000000000001,0.));
#499=CARTESIAN_POINT('Origin',(-5.,0.,3.275));
#500=CARTESIAN_POINT('',(-2.,0.,4.));
#501=CARTESIAN_POINT('',(-8.,-3.67394039744206E-16,4.));
#502=CARTESIAN_POINT('Origin',(-5.,0.,4.));
#503=CARTESIAN_POINT('Origin',(-5.,0.,4.));
#504=CARTESIAN_POINT('',(-6.55,-1.8982025386784E-16,2.55));
#505=CARTESIAN_POINT('',(-7.275,-2.78607146806023E-16,3.275));
#506=CARTESIAN_POINT('',(-3.45,0.,2.55));
#507=CARTESIAN_POINT('Origin',(-5.,0.,2.55));
#508=CARTESIAN_POINT('Origin',(-5.,0.,2.55));
#509=CARTESIAN_POINT('Origin',(-5.,0.,-102.719715142049));
#510=CARTESIAN_POINT('',(-6.55,-1.8982025386784E-16,-4.));
#511=CARTESIAN_POINT('',(-6.55,-1.8982025386784E-16,-102.719715142049));
#512=CARTESIAN_POINT('Origin',(-5.,0.,-4.));
#513=CARTESIAN_POINT('Origin',(-15.,0.,3.275));
#514=CARTESIAN_POINT('',(-12.,0.,4.));
#515=CARTESIAN_POINT('',(-18.,-3.67394039744206E-16,4.));
#516=CARTESIAN_POINT('Origin',(-15.,0.,4.));
#517=CARTESIAN_POINT('Origin',(-15.,0.,4.));
#518=CARTESIAN_POINT('',(-16.55,-1.8982025386784E-16,2.55));
#519=CARTESIAN_POINT('',(-17.275,-2.78607146806023E-16,3.275));
#520=CARTESIAN_POINT('',(-13.45,0.,2.55));
#521=CARTESIAN_POINT('Origin',(-15.,0.,2.55));
#522=CARTESIAN_POINT('Origin',(-15.,0.,2.55));
#523=CARTESIAN_POINT('Origin',(-15.,0.,-102.719715142049));
#524=CARTESIAN_POINT('',(-16.55,-1.8982025386784E-16,-4.));
#525=CARTESIAN_POINT('',(-16.55,-1.8982025386784E-16,-102.719715142049));
#526=CARTESIAN_POINT('Origin',(-15.,0.,-4.));
#527=CARTESIAN_POINT('Origin',(-5.0416405811827E-15,8.5,5.55111512312578E-15));
#528=CARTESIAN_POINT('',(70.,8.50000000000002,-1.44999999999999));
#529=CARTESIAN_POINT('Origin',(70.,8.50000000000002,5.55111512312578E-15));
#530=CARTESIAN_POINT('',(-5.0416405811827E-15,8.5,-1.44999999999999));
#531=CARTESIAN_POINT('',(-5.0416405811827E-15,8.5,-1.44999999999999));
#532=CARTESIAN_POINT('Origin',(-5.06705788438921E-15,8.5,5.55111512312578E-15));
#533=CARTESIAN_POINT('Origin',(70.,8.50000000000003,5.62792158944769E-15));
#534=CARTESIAN_POINT('Origin',(6.00748482682073E-16,-8.5,1.11022302462516E-15));
#535=CARTESIAN_POINT('',(70.,-8.49999999999998,-1.45));
#536=CARTESIAN_POINT('Origin',(70.,-8.49999999999998,1.11022302462516E-15));
#537=CARTESIAN_POINT('',(6.00748482682073E-16,-8.5,-1.45));
#538=CARTESIAN_POINT('',(6.00748482682073E-16,-8.5,-1.45));
#539=CARTESIAN_POINT('Origin',(5.95079541199084E-16,-8.5,1.11022302462516E-15));
#540=CARTESIAN_POINT('Origin',(70.,-8.49999999999998,1.1751219832793E-15));
#541=CARTESIAN_POINT('Origin',(-15.4123993132141,-4.44089209850063E-15,
-4.));
#542=CARTESIAN_POINT('',(-6.66133814775094E-15,13.38,-4.));
#543=CARTESIAN_POINT('',(2.22044604925031E-15,-13.38,-4.));
#544=CARTESIAN_POINT('',(-6.66133814775094E-15,13.38,-4.));
#545=CARTESIAN_POINT('',(-11.,-13.38,-4.));
#546=CARTESIAN_POINT('',(2.22044604925031E-15,-13.38,-4.));
#547=CARTESIAN_POINT('',(-33.,-9.89554231286021,-4.));
#548=CARTESIAN_POINT('',(-11.,-13.38,-4.));
#549=CARTESIAN_POINT('',(-31.5,0.,-4.));
#550=CARTESIAN_POINT('',(-33.,-9.89554231286021,-4.));
#551=CARTESIAN_POINT('',(-33.,9.89554231286019,-4.));
#552=CARTESIAN_POINT('',(-31.5,0.,-4.));
#553=CARTESIAN_POINT('',(-11.,13.38,-4.));
#554=CARTESIAN_POINT('',(-33.,9.89554231286019,-4.));
#555=CARTESIAN_POINT('',(-11.,13.38,-4.));
#556=CARTESIAN_POINT('Origin',(-11.,-13.38,0.));
#557=CARTESIAN_POINT('',(2.22044604925031E-15,-13.38,4.));
#558=CARTESIAN_POINT('',(2.22044604925031E-15,-13.38,0.));
#559=CARTESIAN_POINT('',(-11.,-13.38,4.));
#560=CARTESIAN_POINT('',(2.22044604925031E-15,-13.38,4.));
#561=CARTESIAN_POINT('',(-11.,-13.38,0.));
#562=CARTESIAN_POINT('Origin',(-33.,-9.89554231286021,0.));
#563=CARTESIAN_POINT('',(-33.,-9.89554231286021,4.));
#564=CARTESIAN_POINT('',(-11.,-13.38,4.));
#565=CARTESIAN_POINT('',(-33.,-9.89554231286021,0.));
#566=CARTESIAN_POINT('Origin',(-31.5,0.,0.));
#567=CARTESIAN_POINT('',(-31.5,0.,4.));
#568=CARTESIAN_POINT('',(-33.,-9.89554231286021,4.));
#569=CARTESIAN_POINT('',(-31.5,0.,0.));
#570=CARTESIAN_POINT('Origin',(-33.,9.89554231286019,0.));
#571=CARTESIAN_POINT('',(-33.,9.89554231286019,4.));
#572=CARTESIAN_POINT('',(-31.5,0.,4.));
#573=CARTESIAN_POINT('',(-33.,9.89554231286019,0.));
#574=CARTESIAN_POINT('Origin',(-11.,13.38,0.));
#575=CARTESIAN_POINT('',(-11.,13.38,4.));
#576=CARTESIAN_POINT('',(-33.,9.89554231286019,4.));
#577=CARTESIAN_POINT('',(-11.,13.38,0.));
#578=CARTESIAN_POINT('Origin',(-6.66133814775094E-15,13.38,0.));
#579=CARTESIAN_POINT('',(-6.66133814775094E-15,13.38,4.));
#580=CARTESIAN_POINT('',(-11.,13.38,4.));
#581=CARTESIAN_POINT('',(-6.66133814775094E-15,13.38,0.));
#582=CARTESIAN_POINT('Origin',(2.22044604925031E-15,-13.38,0.));
#583=CARTESIAN_POINT('',(-6.66133814775094E-15,13.38,4.));
#584=CARTESIAN_POINT('Origin',(-15.4123993132141,-4.44089209850063E-15,
4.));
#585=UNCERTAINTY_MEASURE_WITH_UNIT(LENGTH_MEASURE(0.01),#589,
'DISTANCE_ACCURACY_VALUE',
'Maximum model space distance between geometric entities at asserted c
onnectivities');
#586=UNCERTAINTY_MEASURE_WITH_UNIT(LENGTH_MEASURE(0.01),#589,
'DISTANCE_ACCURACY_VALUE',
'Maximum model space distance between geometric entities at asserted c
onnectivities');
#587=(
GEOMETRIC_REPRESENTATION_CONTEXT(3)
GLOBAL_UNCERTAINTY_ASSIGNED_CONTEXT((#585))
GLOBAL_UNIT_ASSIGNED_CONTEXT((#589,#592,#591))
REPRESENTATION_CONTEXT('','3D')
);
#588=(
GEOMETRIC_REPRESENTATION_CONTEXT(3)
GLOBAL_UNCERTAINTY_ASSIGNED_CONTEXT((#586))
GLOBAL_UNIT_ASSIGNED_CONTEXT((#589,#592,#591))
REPRESENTATION_CONTEXT('','3D')
);
#589=(
LENGTH_UNIT()
NAMED_UNIT(*)
SI_UNIT(.MILLI.,.METRE.)
);
#590=(
LENGTH_UNIT()
NAMED_UNIT(*)
SI_UNIT(.CENTI.,.METRE.)
);
#591=(
NAMED_UNIT(*)
SI_UNIT($,.STERADIAN.)
SOLID_ANGLE_UNIT()
);
#592=(
NAMED_UNIT(*)
PLANE_ANGLE_UNIT()
SI_UNIT($,.RADIAN.)
);
#593=SHAPE_DEFINITION_REPRESENTATION(#594,#595);
#594=PRODUCT_DEFINITION_SHAPE('',$,#597);
#595=SHAPE_REPRESENTATION('',(#357),#587);
#596=PRODUCT_DEFINITION_CONTEXT('part definition',#601,'design');
#597=PRODUCT_DEFINITION('GPF-D025-ST250-2.0','GPF-D052-ST-2.0',#598,#596);
#598=PRODUCT_DEFINITION_FORMATION('',$,#603);
#599=PRODUCT_RELATED_PRODUCT_CATEGORY('GPF-D052-ST-2.0',
'GPF-D052-ST-2.0',(#603));
#600=APPLICATION_PROTOCOL_DEFINITION('international standard',
'automotive_design',2009,#601);
#601=APPLICATION_CONTEXT(
'Core Data for Automotive Mechanical Design Process');
#602=PRODUCT_CONTEXT('part definition',#601,'mechanical');
#603=PRODUCT('GPF-D025-ST250-2.0','GPF-D052-ST-2.0',$,(#602));
#604=PRESENTATION_STYLE_ASSIGNMENT((#606));
#605=PRESENTATION_STYLE_ASSIGNMENT((#607));
#606=SURFACE_STYLE_USAGE(.BOTH.,#608);
#607=SURFACE_STYLE_USAGE(.BOTH.,#609);
#608=SURFACE_SIDE_STYLE('',(#610));
#609=SURFACE_SIDE_STYLE('',(#611));
#610=SURFACE_STYLE_FILL_AREA(#612);
#611=SURFACE_STYLE_FILL_AREA(#613);
#612=FILL_AREA_STYLE('',(#614));
#613=FILL_AREA_STYLE('',(#615));
#614=FILL_AREA_STYLE_COLOUR('',#616);
#615=FILL_AREA_STYLE_COLOUR('',#617);
#616=COLOUR_RGB('',0.749019607843137,0.749019607843137,0.749019607843137);
#617=COLOUR_RGB('',0.8,0.,0.);
ENDSEC;
END-ISO-10303-21;
